Beastly Magic Leisure

from by Hold on Photon

/
  • Streaming + Download

    Includes high-quality download in MP3, FLAC and more. Paying supporters also get unlimited streaming via the free Bandcamp app.

      name your price

     

lyrics

palm muted
C#m / E / C#m / 5 / 7 (higher riff)
C#m / E / A / E
------------------------------------------------
-5-5------------5-7-9-7h9-10-9-7-5----
-----1--4-2-1--------------------------------
-----2-2-----2-------------------------------
-4-4------------4-5-7----------------------
-----------------------------------------------

--------------------------------------
-5-5----------------2-------------------
-----1--4-2-1-----2-----------------------
-----2-2-------2---2--2----------------------
-4-4-------------------2----------------
-------------------------------------

----------------2-4-2-------2-4---------
----------------2-4-2-------2-4---------
----------------2-4-2---1--2-4----1----
2-----2-h3h44-6-4--2--4-6----2----
2-2-4------------------2-----------2----
--------------------------------------------

morning swarmed the window
as they spoke in senatorial tones
neurons align it just takes time
how long, we never know (A / E)

I thought about decision
in the cafe line (higher part)
met a split-brain patient
and it changed my mind
changed my mind
2 4 2
we're all a head injury away
E
from being a different person
2 4 2 E
we are the stories we tell ourselves
2 4 2 E
leave me in my beastly magic leisure oh please sir 2 4 2 E
you can keep the answers for yourself
as the days flashed by
I felt it in my soul
I'm making up stories
about being in control
2 4 2
we're all a head injury away
E
from being a different person
2 4 2 E
we are the stories we tell ourselves
2 4 2 E
leave me in my beastly magic leisure oh please sir 2 4 2 E
you can keep the answers for yourself
be happy while you're healthy
be nice while you're still here
a good motto to live by
is try not to get killed

credits

from Lucky Wind, released February 1, 2013

tags

license

all rights reserved

about

Hold on Photon Helena, Alabama

Sean Glass is a lawnchair balloonist and live action lunatic from Helena, AL. His style draws deeply from blues, folk, science and existentialism. Check out the official site for more info. Or not. It's amazing you even read this.

contact / help

Contact Hold on Photon

Streaming and
Download help

Redeem code