Call It Off

from by Hold on Photon

/
  • Streaming + Download

    Includes high-quality download in MP3, FLAC and more. Paying supporters also get unlimited streaming via the free Bandcamp app.

      name your price

     

lyrics

-------------------------------
----------------------3-2-3-2------
----------------------4-2-4-2-------
----0-2-0-0------------------------
-0h2-----2-0--------0----0--------------
0-----------3b-0-//3---------------------

---0-0-----------------------------------------------
3/5-5-5/3-0-------5-4--5-4--------------------------
-----------2-0----4-4--4-4---2h4-2-----0-2bp0-------
-----------------------------2h4-2--0h2-------2p0----
-----------------2----2----0-------0-----------------
--------------0-3---------------------------------0---

got your peanut butter
got your pork and beans
you can try to make dinner but it won't mean a thing
when she can keep it keep it from happening
your feelings might be strong
but she can call it off

Got another late nite
Starin at the screen
watching some moron sell used cars on tv
and she's sleeping dreamin all night long
you might have the mojo sauce
but she can call it off
she can call it off

say whatever u want
you can say it nice
If she tells you to go to hell with a smile don't be surprised
she can call it off
call it off all she likes
aren't you the one who asked her
if she'd be your wife

**************************************
Get more tabs and free music at holdonphoton.com

credits

from Everything Depends, released September 17, 2013

license

all rights reserved

tags

about

Hold on Photon Helena, Alabama

Sean Glass is a lawnchair balloonist and live action lunatic from Helena, AL. His style draws deeply from blues, folk, science and existentialism. Check out the official site for more info. Or not. It's amazing you even read this.

contact / help

Contact Hold on Photon

Streaming and
Download help

Redeem code