Can't Be Seen

from by Hold on Photon

/
  • Streaming + Download

    Includes high-quality download in MP3, FLAC and more. Paying supporters also get unlimited streaming via the free Bandcamp app.

      name your price

     

lyrics

-10-7---7-10-7---------------------------
-----10b-------------10--12-10-----------
--------------7~-9/11--11-----11-10-9----
-------------------------------------11b-9
-----------------------------------------

B7 - E9 - B7 - F#9 - E9 - B7

I love you baby but you're wild as hell
Go out with you I might and up in jail
I'll keep my distance
and my record too
I can't be seen in public with you

want me to meet you down at that place
you can take yourself any day
Can't meet up tonight I've got the flu
plus I can't be seen in public with you

------7----9-9/11---------------
--9-8-x-9--9-x----99-1212-1111-1010---------
--8-8-7-8--9-9----88-1111-1010-9-9--8-------
--7-7-6-7----8----77-1010-9-9--8-8--x-------
--x-x-7-x--x-9----xx-x-x--x-x--x-x--9-------
--7-7---7--9------77-1010-9-9--8-8--7-------

B13 E9 C#m7 F#9 B13-D13-C#13-C13 B7

-------------------------------------
-5p4--------------4h554--7--5--4---------------
-----6p4-------4h6-------8--6--4-------------
--------6p4-4h6---------8--6--4-------------
-----------------------------------
------------------------------------

------------------------------------------------------------------------
-9(bend down off fretboard)-7---14(BD)-12h14-12-12-10-10-99-88-7-5-6-7-----
-----------------------------------------------------------------6-7-8---
-----------------------------------------------------------------6-7-8-------

B7 - E9 - B7 - F#9 - E9 - B7

I'm not sayin I'm any kind of cool
but why pay money to look like a fool
Y'all have fun tonight
You and your attitude
I can't be seen in public with you

---h10-7-9-7--------------10-10--------9----9----9--------
-------7-9-7--12-11-10-9----------9----9----9----9-------
8------7-9-7--11-10-9--8-8--------8----9----9----9-------
7------6-8-6--10-9--8--7-7--------7----8----9----8-------
9------7-9-7--x--x--x--x-9--------x----9----x----9-------
7-------------10-9--8--7-7--------7---------9-----------

B7 E9 F#9 E9 D13 B13 turn C#m7 F#9
**************************************
Get more tabs and free music at holdonphoton.com

credits

from Everything Depends, released September 17, 2013

tags

license

all rights reserved

about

Hold on Photon Helena, Alabama

Sean Glass is a lawnchair balloonist and live action lunatic from Helena, AL. His style draws deeply from blues, folk, science and existentialism. Check out the official site for more info. Or not. It's amazing you even read this.

contact / help

Contact Hold on Photon

Streaming and
Download help

Redeem code