/
  • Streaming + Download

    Includes high-quality download in MP3, FLAC and more. Paying supporters also get unlimited streaming via the free Bandcamp app.

      name your price

     

lyrics

Eb - Ab - Eb - Ab - C - Eb

1st Part (4 times)
--------------------
--------------------
--------------------
-------2-0--0----------
0-3b-0----3--------------
--------------------
2nd PART
-----------------------------------
------------------------------------
---00---024-4-4p2p0-2-0---0-2-0-----
0h2--0h2-----------0---0h2---------
---------------------------------
---------------------------------
3rd PART
-3/5--5--5--7-8-7-5-------------
-3/5---5--5-5-5-----5/-------
-3/5-5--5---5-5--------------
-----------------------
-------------------
---------------------
Intro - first part 4 times

Verse One - first part 8 times

Every day is lightnin' on the brain
Every day's another guessing game

2nd Part TWICE

3rd Part

Intro again (4 times)

Verse Two - 8 more times

Every day's a new song and dance
Every day's another chance

Time is just an old man
Who needs something to do
And so every day he'll try to
Give you the blues

2nd Part Twice

3rd Part

on 8 7 5 , open strum chord to end
**************************************
Get more tabs and free music at holdonphoton.com

credits

from Everything Depends, released September 17, 2013

tags

license

all rights reserved

about

Hold on Photon Helena, Alabama

Sean Glass is a lawnchair balloonist and live action lunatic from Helena, AL. His style draws deeply from blues, folk, science and existentialism. Check out the official site for more info. Or not. It's amazing you even read this.

contact / help

Contact Hold on Photon

Streaming and
Download help

Redeem code