Everything Depends

from by Hold on Photon

/
  • Streaming + Download

    Includes high-quality download in MP3, FLAC and more. Paying supporters also get unlimited streaming via the free Bandcamp app.

      name your price

     

lyrics

D# / A# / D# / G / A# / D# -tuning

-----------0--0--
------------0----
-----------------
0-0-0---0-0--0---
-----------------
-0-0-0---0-----0-
x2 x2
-------------0--3/4----2---/7-/5-0----
--------2p0---0-4/5----2---/7-/5-0------
--------1p0-0--0--x----x---/7-/5-0----
0-0--------0------0---------0---
--------------------------------
-0-0------------------------------

if you feel like an idiot most of the time
7 5 0
does that mean you are one

you know I rarely, rarely say anything
7 5 0
I haven't over-analyzed

then one day I found out for myself

everything depends on everything else

then i got a little older

and I started having hope

for something other than myself

watchin my boys grow

------/7-7-7-7/5-5-5-5/4-4-4-4/2-2-2--------------
------/9--9--9/7--7--7/5--5--5/4--4--2-2--2--2--2p0--
-------------------------------------1--1--1--1-1p0---
0-0-0---0------0------0------0--------0--0--0--0---
-------------------------------------------------
-0-0-0-------------------------------------------

double step
-0--4----------4-4-5-7--
--0-5-22p0-----5-5-7-9--
------11p0----------
0--0--------------
-----------------------
-------------------------

oh, one day they'll find out for themselves

everything depends on everything else

45 22 00
Might get lucky if you - just - let - go

Change perspective when you - lose - control

need the secret time won't tell

everything depends on everything else

7-5-5-7-12*---
9-7-5-7-12*---
----5-7-12*---
--------------
--------------
--------------
**************************************
Get more tabs and free music at holdonphoton.com

credits

from Everything Depends, released September 17, 2013

license

all rights reserved

tags

about

Hold on Photon Helena, Alabama

Sean Glass is a lawnchair balloonist and live action lunatic from Helena, AL. His style draws deeply from blues, folk, science and existentialism. Check out the official site for more info. Or not. It's amazing you even read this.

contact / help

Contact Hold on Photon

Streaming and
Download help

Redeem code