Got Me Good

from by Hold on Photon

/
  • Streaming + Download

    Includes high-quality download in MP3, FLAC and more. Paying supporters also get unlimited streaming via the free Bandcamp app.

      name your price

     

lyrics

D / G / A

G / A
G / A / D / D

Bm / A/G
Bm / A/G A
/D
--------------------5-2-5-2------------0-----------
-10-7-10-7-5-3--------------5-3-------3-3---------
---------------------------------4p2h4---4------------
0--0-0--0----------0-----------------------------
------------------------------------------------
-------------------------------------------------

D ddd d d D
----------------
----------------
------0-0--------
0---------0------
Young and dumb and I was
naive from the start
banging things together i noticed a spark
G A
found some firewood
G A
stacked it best i could
D
and we're cookin now
oh, you got me good (riff)

I saw stars blinking
Is this all a dream
behind the eyeballs, electro-chemistry
G A
gave myself more credit
G A
than I ever should
D
love and neuroscience
oh you got me good

oo oo oooh you got me got me good
oo oo oooh you got me got me good

as the future recedes
right along my hairline
and I come to terms with fleeting life
we work so hard to define ourselves but
i'd rather be happy than right (this...time)

oo oo oooh you got me got me good
oo oo oooh you got me got me good
yep!

credits

from Lucky Wind, released February 1, 2013

license

all rights reserved

tags

about

Hold on Photon Helena, Alabama

Sean Glass is a lawnchair balloonist and live action lunatic from Helena, AL. His style draws deeply from blues, folk, science and existentialism. Check out the official site for more info. Or not. It's amazing you even read this.

contact / help

Contact Hold on Photon

Streaming and
Download help

Redeem code