/
  • Streaming + Download

    Includes high-quality download in MP3, FLAC and more. Paying supporters also get unlimited streaming via the free Bandcamp app.

      name your price

     

lyrics

-4p2-0----0------0--2p0--4--4--4----------
-------2---2--0h2-2----2----------------
-------2-2--2------x-----4---4----------
-------------------------2-2--2---------
------------------------------------
-------------------------------------
(riff)
5--5---5-5-4-2--------4h554-2-0-------
4---4----------------------------2---
--------------------------------2----
4-4---4------------------------------
------------------------------------
-------------------------------------
Intro A/E A/E (stop)

A
Little ladybug
E
Look at how u shine
B
Think if I could catch u
E
Surely you'd be mine
A
So I keep on hopin
E
Hard as I can
B (riff)
That when you're my lady
A E 4 2 0
I could be your man
A
Little ladybug
E
Why'd u fly away
B
Had you in my hands oh
E
Don't u wanna play
A
You don't like me looking
E
Starin like a stone
B (riff)
If I look away though
A E 4 2 0
Surely you'd be gone

(SOLO)
A
Little ladybug
E
Look at how u shine
B
Think if I could catch u
A E A E A~~~~~~E~
Surely you'd be mine
**************************************
Get more tabs and free music at holdonphoton.com

credits

from Everything Depends, released September 17, 2013

license

all rights reserved

tags

about

Hold on Photon Helena, Alabama

Sean Glass is a lawnchair balloonist and live action lunatic from Helena, AL. His style draws deeply from blues, folk, science and existentialism. Check out the official site for more info. Or not. It's amazing you even read this.

contact / help

Contact Hold on Photon

Streaming and
Download help

Redeem code