Lucky Wind

from by Hold on Photon

/
  • Streaming + Download

    Includes high-quality download in MP3, FLAC and more. Paying supporters also get unlimited streaming via the free Bandcamp app.

      name your price

     

lyrics

(i) x2
--3-----3~-3---------------------3-----3--3-----------
----3h5-3~--3---------5-55-3-------3h5-3---3----3-3------
-----------------------------4~----------------------
--0------0---0--------5-55-0-----0------0---0--0-0-----
-------------------0-3-3-----------------------------
3-------------3-----------------3------------3-------
(t)
---------------------------------------------
-7-5-3----5-3----------------------------------
--------------3h4~-------------------------
-7-0-0----5-0-----------------------------
-5-----0h3------------------------------
------------------3-------------------
x2
-5-5-5-5-3-5--3-3-3-3-3-5--------------------------
-7-7-7-5-3-5--5-5-5-3-3-5-------3-3--3---3--------------
--------------------------------4-4--4--4-------------
-------------------------------------------------
------------------------------3--3--2--0------------
7-7-7--------5-5-5-----------------------3-------

Many times I've tried to tell you
Twice now I tried to make you see
More than anything
So when it ends up breakin
don't look at me
Lately you've been lucky
distracted from liabilities
they gotcha on your knees
So when u need some money
Don't look at me
gonna get my hands into that lucky wind
the seasons change and now it's time again
to get away from...
you started askin questions
expectin answers from monkeys
it's frightening
so when it makes no difference
don't look at me
our opinions are leaves in the street
and nobody I know sweeps
wait for a lucky wind
we wait for that lucky wind
(break)
throw those dandelions
on our grave
c'mon lucky wind let's be brave
carry us away
just wait

**************************************************************
check out holdonphoton.com for more tabs and free music

credits

from Lucky Wind, released February 1, 2013

tags

license

all rights reserved

about

Hold on Photon Helena, Alabama

Sean Glass is a lawnchair balloonist and live action lunatic from Helena, AL. His style draws deeply from blues, folk, science and existentialism. Check out the official site for more info. Or not. It's amazing you even read this.

contact / help

Contact Hold on Photon

Streaming and
Download help

Redeem code