Nectarine

from by Hold on Photon

/
  • Streaming + Download

    Includes high-quality download in MP3, FLAC and more. Paying supporters also get unlimited streaming via the free Bandcamp app.

      name your price

     

lyrics

A / Dmaj7 x54222 / Dmaj9 x5222 / C#m x4665x / Bm x24432 / Dm / A

A E D A
x2
---------------------------------------------------------------
2-----2-2---------------------------------------------------2--
2-----2-2----2~---1h2-1~----1-2--1h2p1----------------------2--
2-4-2-2-2--4-------------4-------------4-2---------2--------2--
--------------------------------------------(0-2/4---4/2-2-0---
---------------------------------------------------------------

E x79997 / D xx77710 / A x07650

(Ah4A)up on the hill
(Dmaj7/9)beauty is strange
(C#m)flowers look like accidents
that (Bm)heal in the rain
(Ah4A)it's more than all
(Dmaj7/9)that we can see
when we (C#m)stare into the sky
where nothing (Bm)appears to be

(E)MY SWEEET(D)NECTARINE(A)
(E)MY SWEEET(D)NECTARINE(A)

(Ah4A)you're my eve
(Dmaj7/9)with that apple
i'm (C#m)your monkey man(Bm)
i(Dm~~arpeg)will eat whatever you've got in your hand

(E)MY SWEEET(D)NECTARINE(A)
(E)MY SWEEET(D)NECTARINE(A)

(Dm~~)when I think about you I feel the chemicals movin' (A/A)
(Dm~~)when I think about you I feel the chemicals
(C#m/Bm)movin'/ (C#m/Bm)movin'yeah'yeah
oooh oo ooo ooooo o ooooo oooo!!!

with no guarantee
that we're anything
other than what we love
it didn't take long
to dream up a song
or decide that is enough

(E)MY SWEEET(D)NECTARINE(A)
(E)MY SWEEET(D)NECTARINE(A)

double sweep lick: 12****9 / 10****7
-------------------------------------
--5/7/5----2~---------5/7--10*~-------------
--4/6/4----2~---------4/6---9*~------------
-----------2~------------------------
----------------------------0*~~---------
-------------------------------------
***************************************************************
check out holdonphoton.com for more tabs and free music

credits

from Lucky Wind, released February 1, 2013

license

all rights reserved

tags

about

Hold on Photon Helena, Alabama

Sean Glass is a lawnchair balloonist and live action lunatic from Helena, AL. His style draws deeply from blues, folk, science and existentialism. Check out the official site for more info. Or not. It's amazing you even read this.

contact / help

Contact Hold on Photon

Streaming and
Download help

Redeem code