Not Much

from by Hold on Photon

/
  • Streaming + Download

    Includes high-quality download in MP3, FLAC and more. Paying supporters also get unlimited streaming via the free Bandcamp app.

      name your price

     

lyrics

DADGAD Tuning

V 1 / 2 / C3 / solo over verse / C5 / end

x2
------------------------------------------------
---0---------------------------------------------
----0-0------0--------0-0-0-0-0---------------
-----0--4-2-0---------------------------------
-0----------------------------------------------
0----------------2/55--5-5-5-5-4/2b0~------------


--------------------------------------------
---0-----------------------------------------
----0----------------------------------------
------0--0------------------------------------
-5---5----------------------------------------
2------5--5-4-2-0~--------------------------


-----0--0--0-----0------------------0--0--0--------0----0--------
------0--0--0-----0-0-0--------------0--0--0---0----0----0-------
2/55---5--5--5/22--2-2--------2/5-5---5--5--5-5-5/77-/99--9/11-11
------------------------3/5/4------------------------------------
-----------------------------------------------------------------
-----------------------------------------------------------------

-------------------------
-5--7--12--9--2----------------
-------------------------
-------------------------
-5--7--10--9--0----------------
-------------------------

somewhere, behind your eyes
all that meat , becomes your mind
and no one here knows why
we are what we can't define

see the gold among the sand
if we can't save it or sell it
we could give a damn
it feels like an empty search
we don't ever do much, but it's such hard work

gets so cold at times it's lonely
reporting live here from the zoo
like an old car dealer's catch phrase
guess how much you hear is true

I'm in park
In the passing lane
been through changes but i feel the same
does any of this make sense
if consciousness is a consequence

most of life will drive you crazy
there is not much you can do
keep movin' on or wastin' away
what you think , is up to you
even that, may not be true

credits

from Savin Up, released July 1, 2014

tags

license

all rights reserved

about

Hold on Photon Helena, Alabama

Sean Glass is a lawnchair balloonist and live action lunatic from Helena, AL. His style draws deeply from blues, folk, science and existentialism. Check out the official site for more info. Or not. It's amazing you even read this.

contact / help

Contact Hold on Photon

Streaming and
Download help

Redeem code