Roll Right On

from by Hold on Photon

/
  • Streaming + Download

    Includes high-quality download in MP3, FLAC and more. Paying supporters also get unlimited streaming via the free Bandcamp app.

      name your price

     

lyrics

(slap the crap out of E string)
---------------------------------
--------------------------2---4---
--1-2-1--1-2-1------------2---4------
-----------------------------------
---------------------------0--------
-0-----0-----(3holdB-0)--------------

A/C# Am6 A7
-----------------
--2-------2-------
--2----2--2---0h1----
--2----4--2---2----
-4-----3-4----2--
---------------

7b-0*-7b-0*-----------------------------------------9/11/9-7----
8b-0*-8b-0*--5-----------------------------------7h9--------9---
-----------7b-------------------------4-6-4-4h6/9---------------
------------------------------2-2-4/6------6---------------------
-----------------------0h2h3h4-4---------------------------------
----------------0h2h3h4------------------------------------------

Saw a guy on Monday I knew for years
lived clean shined his shoes even took his pills
had a heart attack on his way home
and the traffic rolled right on

Got a new deodorant on Tuesday
doesn't make my nose explode
plus it smells ok
it's the little things
that help us roll right on
roll right on

I ain't got no pension
No Chinese gold
But I know a good place to eat
And what time they close
Let's roll right on

SOLO

Lifes a movie that outlives the audience
best we can hope for is to recognize
a song and it won't be long
when the credits roll right on
roll right on roll right on
**************************************
Get more tabs and free music at holdonphoton.com

credits

from Everything Depends, released September 17, 2013

tags

license

all rights reserved

about

Hold on Photon Helena, Alabama

Sean Glass is a lawnchair balloonist and live action lunatic from Helena, AL. His style draws deeply from blues, folk, science and existentialism. Check out the official site for more info. Or not. It's amazing you even read this.

contact / help

Contact Hold on Photon

Streaming and
Download help

Redeem code