Swing on Over

from by Hold on Photon

/
  • Streaming + Download

    Includes high-quality download in MP3, FLAC and more. Paying supporters also get unlimited streaming via the free Bandcamp app.

      name your price

     

lyrics

SWING ON OVER
Em9 D * C (use pinky) G

--h14p12-12---10--12------------------
12---------12-10--12--8-h10-12/10-(8)--8-
12------------11------9-----------(9)--7-
12------------12------10----------10---9--
--------------------------------------10--
--------------------------------------
G E
-2/3--55-3-----------5--------
-2/3------5-3h5p3----5----------
-3/4-------------4---5---
---------------------
----------------------
-------------------------
C# C
-5--5--3-----5/7-------------
-5--4--3-----5/7------------
-6--5--4-----5/7----------
---------------------
----------------------
-------------------------
G
you like good music
G
I like cheap wine
E
come on to my place
G
we'll have a real good time
C# C
I've got all you need
//G
if you just swing on over to me

G
won't keep you waitin'
G
wouldn't cause a scene
E
if i ask nicely
G
I ain't gonna plead
C# C
just take a chance
/G
and swing on over to me
(Solo)
G
part of you is hungry
G
that's the part I'll feed
E
only got one promise
G
satisfaction guaranteed
C# C
so find the keys
/G
and just swing on over to me

you like good music

I like grilled cheese

you like bad movies

I like sweet tea.

credits

from Everything Depends, released September 17, 2013

tags

license

all rights reserved

about

Hold on Photon Helena, Alabama

Sean Glass is a lawnchair balloonist and live action lunatic from Helena, AL. His style draws deeply from blues, folk, science and existentialism. Check out the official site for more info. Or not. It's amazing you even read this.

contact / help

Contact Hold on Photon

Streaming and
Download help

Redeem code