Telomerase

from by Hold on Photon

/
  • Streaming + Download

    Includes high-quality download in MP3, FLAC and more. Paying supporters also get unlimited streaming via the free Bandcamp app.

      name your price

     

lyrics

open A throughout riff!

----------------------------------------------------------------------
----------------------------------------------------------------------
-------------------------------2~---------------------------------------
------2h4-2--2------2h4-2--2-4---2h4-2---2-----------------------------
----0-------4-4-2-0-------4------------4---4-2-0--222-444-000---0~~----
5*5*---------------------------------------------------------2p0-------
(harmonic beginning...)

--2---2-------------------------------------
----4---4--2-0--------------------------------
E------------------------------------------

B: x244
C#:x466
D: x577
A~
------------------
77v7-6-4----------
------------------
------------------

Bone mass
I read about how
you won't last too many days
and so we'll just have to make accidents happen

Way down
in platos cave
we trace shadows on the wall
and so getting anywhere-interesting means never going home

while we face, We all face, We all face that telomerase

our hearts
are bleeding
lets make the best of it
while we're aware of a strange existence

we'll live
because we have to
and we'll dream because we'll need
to be distracted from all these things

while we face, While we face, We all face that telomerase
E D (slow ring out) A
even ray kurzweil ain't gonna make it!
E D (slow ring out) A
vitamin man ain't gonna make it!

E
e|--7-----7---|
B|----7-----7-|
G|9-----9-----|


D
e|--5-----5----|
B|----5-----5--|
G|7-----7------|


A
e|---5------5---|
B|-----5-------5|
G|-6------6-----|


****************************************************************
check out holdonphoton.com for more tabs and free music

credits

from Lucky Wind, released February 1, 2013

license

all rights reserved

tags

about

Hold on Photon Helena, Alabama

Sean Glass is a lawnchair balloonist and live action lunatic from Helena, AL. His style draws deeply from blues, folk, science and existentialism. Check out the official site for more info. Or not. It's amazing you even read this.

contact / help

Contact Hold on Photon

Streaming and
Download help

Redeem code